1. Welcome to the Muppet Central Forum!
    You are viewing our forum as a guest. Join our free community to post topics and start private conversations. Please contact us if you need help with registration or your account login.

Sesame Street Guitar Tab

Discussion in 'Sesame Street' started by homerthegreat, Sep 26, 2004.

  1. homerthegreat

    homerthegreat Member

    I figured out how to play the Sesame Street theme on guitar today! :) Here's a tab if you want to learn how to play it:

    e-----------------------------------------------------
    B-----------------------------------------------------
    G-----------------------------------------------------
    D-----------------------------------------------------
    A--5-2------0-2-----5-2---------5-2------0-2-4-5-7--
    E-------3--3-------------3-----------3--3-------------

    e-------------------------------------
    B-------------------------------------
    G-------------------------------------
    D-----------------------------0-0-0--
    A--5-7-8-7-5-2-0----0-2-3-2-0-------
    E-------------------------------------


    HTG :halo:
  2. bigbirdfan

    bigbirdfan New Member

    nice job

    nice job i like the idea :)

Share This Page